  0
SECTION
  2
HEADER
  9
$ACADVER
  1
AC1015
  9
$ACADMAINTVER
 70
     6
  9
$DWGCODEPAGE
  3
ANSI_1254
  9
$INSBASE
 10
0.0
 20
0.0
 30
0.0
  9
$EXTMIN
 10
0.0
 20
0.0
 30
0.0
  9
$EXTMAX
 10
279.4
 20
215.9
 30
0.0
  9
$LIMMIN
 10
0.0
 20
0.0
  9
$LIMMAX
 10
279.4
 20
215.9
  9
$ORTHOMODE
 70
     0
  9
$REGENMODE
 70
     1
  9
$FILLMODE
 70
     1
  9
$QTEXTMODE
 70
     0
  9
$MIRRTEXT
 70
     1
  9
$LTSCALE
 40
1.0
  9
$ATTMODE
 70
     1
  9
$TEXTSIZE
 40
3.5
  9
$TRACEWID
 40
1.0
  9
$TEXTSTYLE
  7
Standard
  9
$CLAYER
  8
0
  9
$CELTYPE
  6
ByLayer
  9
$CECOLOR
 62
   256
  9
$CELTSCALE
 40
1.0
  9
$DISPSILH
 70
     0
  9
$DIMSCALE
 40
1.0
  9
$DIMASZ
 40
3.5
  9
$DIMEXO
 40
1.0
  9
$DIMDLI
 40
3.75
  9
$DIMRND
 40
0.0
  9
$DIMDLE
 40
0.0
  9
$DIMEXE
 40
1.0
  9
$DIMTP
 40
0.0
  9
$DIMTM
 40
0.0
  9
$DIMTXT
 40
3.5
  9
$DIMCEN
 40
2.5
  9
$DIMTSZ
 40
0.0
  9
$DIMTOL
 70
     0
  9
$DIMLIM
 70
     0
  9
$DIMTIH
 70
     1
  9
$DIMTOH
 70
     1
  9
$DIMSE1
 70
     0
  9
$DIMSE2
 70
     0
  9
$DIMTAD
 70
     1
  9
$DIMZIN
 70
     0
  9
$DIMBLK
  1

  9
$DIMASO
 70
     1
  9
$DIMSHO
 70
     1
  9
$DIMPOST
  1

  9
$DIMAPOST
  1

  9
$DIMALT
 70
     0
  9
$DIMALTD
 70
     3
  9
$DIMALTF
 40
0.0393700787
  9
$DIMLFAC
 40
1.0
  9
$DIMTOFL
 70
     1
  9
$DIMTVP
 40
0.0
  9
$DIMTIX
 70
     0
  9
$DIMSOXD
 70
     0
  9
$DIMSAH
 70
     0
  9
$DIMBLK1
  1

  9
$DIMBLK2
  1

  9
$DIMSTYLE
  2
ISO-25
  9
$DIMCLRD
 70
     0
  9
$DIMCLRE
 70
     0
  9
$DIMCLRT
 70
     0
  9
$DIMTFAC
 40
1.0
  9
$DIMGAP
 40
1.524
  9
$DIMJUST
 70
     0
  9
$DIMSD1
 70
     0
  9
$DIMSD2
 70
     0
  9
$DIMTOLJ
 70
     0
  9
$DIMTZIN
 70
     0
  9
$DIMALTZ
 70
     0
  9
$DIMALTTZ
 70
     0
  9
$DIMUPT
 70
     0
  9
$DIMDEC
 70
     2
  9
$DIMTDEC
 70
     2
  9
$DIMALTU
 70
     2
  9
$DIMALTTD
 70
     3
  9
$DIMTXSTY
  7
Standard
  9
$DIMAUNIT
 70
     0
  9
$DIMADEC
 70
     2
  9
$DIMALTRND
 40
0.0
  9
$DIMAZIN
 70
     0
  9
$DIMDSEP
 70
    44
  9
$DIMATFIT
 70
     3
  9
$DIMFRAC
 70
     0
  9
$DIMLDRBLK
  1

  9
$DIMLUNIT
 70
     2
  9
$DIMLWD
 70
    -2
  9
$DIMLWE
 70
    -2
  9
$DIMTMOVE
 70
     0
  9
$LUNITS
 70
     2
  9
$LUPREC
 70
     2
  9
$SKETCHINC
 40
1.0
  9
$FILLETRAD
 40
10.0
  9
$AUNITS
 70
     0
  9
$AUPREC
 70
     2
  9
$MENU
  1
.
  9
$ELEVATION
 40
0.0
  9
$PELEVATION
 40
0.0
  9
$THICKNESS
 40
0.0
  9
$LIMCHECK
 70
     0
  9
$CHAMFERA
 40
0.0
  9
$CHAMFERB
 40
0.0
  9
$CHAMFERC
 40
0.0
  9
$CHAMFERD
 40
0.0
  9
$SKPOLY
 70
     0
  9
$TDCREATE
 40
2459935.70967412
  9
$TDUCREATE
 40
2459935.58467412
  9
$TDUPDATE
 40
2459935.709674306
  9
$TDUUPDATE
 40
2459935.584674306
  9
$TDINDWG
 40
0.0000000116
  9
$TDUSRTIMER
 40
0.0000000116
  9
$USRTIMER
 70
     1
  9
$ANGBASE
 50
0.0
  9
$ANGDIR
 70
     0
  9
$PDMODE
 70
     0
  9
$PDSIZE
 40
-1.0
  9
$PLINEWID
 40
0.0
  9
$SPLFRAME
 70
     0
  9
$SPLINETYPE
 70
     6
  9
$SPLINESEGS
 70
     8
  9
$HANDSEED
  5
F5
  9
$SURFTAB1
 70
     6
  9
$SURFTAB2
 70
     6
  9
$SURFTYPE
 70
     6
  9
$SURFU
 70
     6
  9
$SURFV
 70
     6
  9
$UCSBASE
  2

  9
$UCSNAME
  2

  9
$UCSORG
 10
0.0
 20
0.0
 30
0.0
  9
$UCSXDIR
 10
1.0
 20
0.0
 30
0.0
  9
$UCSYDIR
 10
0.0
 20
1.0
 30
0.0
  9
$UCSORTHOREF
  2

  9
$UCSORTHOVIEW
 70
     0
  9
$UCSORGTOP
 10
0.0
 20
0.0
 30
0.0
  9
$UCSORGBOTTOM
 10
0.0
 20
0.0
 30
0.0
  9
$UCSORGLEFT
 10
0.0
 20
0.0
 30
0.0
  9
$UCSORGRIGHT
 10
0.0
 20
0.0
 30
0.0
  9
$UCSORGFRONT
 10
0.0
 20
0.0
 30
0.0
  9
$UCSORGBACK
 10
0.0
 20
0.0
 30
0.0
  9
$PUCSBASE
  2

  9
$PUCSNAME
  2

  9
$PUCSORG
 10
0.0
 20
0.0
 30
0.0
  9
$PUCSXDIR
 10
1.0
 20
0.0
 30
0.0
  9
$PUCSYDIR
 10
0.0
 20
1.0
 30
0.0
  9
$PUCSORTHOREF
  2

  9
$PUCSORTHOVIEW
 70
     0
  9
$PUCSORGTOP
 10
0.0
 20
0.0
 30
0.0
  9
$PUCSORGBOTTOM
 10
0.0
 20
0.0
 30
0.0
  9
$PUCSORGLEFT
 10
0.0
 20
0.0
 30
0.0
  9
$PUCSORGRIGHT
 10
0.0
 20
0.0
 30
0.0
  9
$PUCSORGFRONT
 10
0.0
 20
0.0
 30
0.0
  9
$PUCSORGBACK
 10
0.0
 20
0.0
 30
0.0
  9
$USERI1
 70
     0
  9
$USERI2
 70
     0
  9
$USERI3
 70
     0
  9
$USERI4
 70
     0
  9
$USERI5
 70
     0
  9
$USERR1
 40
0.0
  9
$USERR2
 40
0.0
  9
$USERR3
 40
0.0
  9
$USERR4
 40
0.0
  9
$USERR5
 40
0.0
  9
$WORLDVIEW
 70
     1
  9
$SHADEDGE
 70
     3
  9
$SHADEDIF
 70
    70
  9
$TILEMODE
 70
     1
  9
$MAXACTVP
 70
    64
  9
$PINSBASE
 10
0.0
 20
0.0
 30
0.0
  9
$PLIMCHECK
 70
     0
  9
$PEXTMIN
 10
1.0000000000E+20
 20
1.0000000000E+20
 30
1.0000000000E+20
  9
$PEXTMAX
 10
-1.0000000000E+20
 20
-1.0000000000E+20
 30
-1.0000000000E+20
  9
$PLIMMIN
 10
0.0
 20
0.0
  9
$PLIMMAX
 10
420.0
 20
297.0
  9
$UNITMODE
 70
     0
  9
$VISRETAIN
 70
     1
  9
$PLINEGEN
 70
     0
  9
$PSLTSCALE
 70
     1
  9
$TREEDEPTH
 70
  3020
  9
$CMLSTYLE
  2
Standard
  9
$CMLJUST
 70
     0
  9
$CMLSCALE
 40
20.0
  9
$PROXYGRAPHICS
 70
     1
  9
$MEASUREMENT
 70
     1
  9
$CELWEIGHT
370
    -1
  9
$ENDCAPS
280
     0
  9
$JOINSTYLE
280
     0
  9
$LWDISPLAY
290
     1
  9
$INSUNITS
 70
     4
  9
$HYPERLINKBASE
  1

  9
$STYLESHEET
  1

  9
$XEDIT
290
     1
  9
$CEPSNTYPE
380
     0
  9
$PSTYLEMODE
290
     1
  9
$FINGERPRINTGUID
  2
{8c46297d-860e-4b2a-be87-bfae107f87ef}
  9
$VERSIONGUID
  2
{FAEB1C32-E019-11D5-929B-00C0DF256EC4}
  9
$EXTNAMES
290
     1
  9
$PSVPSCALE
 40
0.0
  9
$OLESTARTUP
290
     0
  0
ENDSEC
  0
SECTION
  2
CLASSES
  0
CLASS
  1
ACDBDICTIONARYWDFLT
  2
AcDbDictionaryWithDefault
  3
ObjectDBX Classes
 90
        0
280
     0
281
     0
  0
CLASS
  1
VISUALSTYLE
  2
AcDbVisualStyle
  3
ObjectDBX Classes
 90
     4095
280
     0
281
     0
  0
CLASS
  1
MATERIAL
  2
AcDbMaterial
  3
ObjectDBX Classes
 90
     1153
280
     0
281
     0
  0
CLASS
  1
SCALE
  2
AcDbScale
  3
ObjectDBX Classes
 90
     1153
280
     0
281
     0
  0
CLASS
  1
TABLESTYLE
  2
AcDbTableStyle
  3
ObjectDBX Classes
 90
     4095
280
     0
281
     0
  0
CLASS
  1
MLEADERSTYLE
  2
AcDbMLeaderStyle
  3
ACDB_MLEADERSTYLE_CLASS
 90
     4095
280
     0
281
     0
  0
CLASS
  1
SUN
  2
AcDbSun
  3
SCENEOE
 90
     1153
280
     0
281
     0
  0
CLASS
  1
ACDBPLACEHOLDER
  2
AcDbPlaceHolder
  3
ObjectDBX Classes
 90
        0
280
     0
281
     0
  0
CLASS
  1
LAYOUT
  2
AcDbLayout
  3
ObjectDBX Classes
 90
        0
280
     0
281
     0
  0
ENDSEC
  0
SECTION
  2
TABLES
  0
TABLE
  2
VPORT
  5
8
330
0
100
AcDbSymbolTable
 70
     1
  0
VPORT
  5
29
330
8
100
AcDbSymbolTableRecord
100
AcDbViewportTableRecord
  2
*Active
 70
     0
 10
0.0
 20
0.0
 11
1.0
 21
1.0
 12
139.7
 22
107.95
 13
0.0
 23
0.0
 14
10.0
 24
10.0
 15
10.0
 25
10.0
 16
0.0
 26
0.0
 36
1.0
 17
0.0
 27
0.0
 37
0.0
 40
215.9
 41
1.2941176471
 42
50.0
 43
0.0
 44
0.0
 50
0.0
 51
0.0
 71
     0
 72
  2000
 73
     1
 74
     3
 75
     0
 76
     0
 77
     0
 78
     0
281
     0
 65
     1
110
0.0
120
0.0
130
0.0
111
1.0
121
0.0
131
0.0
112
0.0
122
1.0
132
0.0
 79
     0
146
0.0
  0
ENDTAB
  0
TABLE
  2
LTYPE
  5
5
330
0
100
AcDbSymbolTable
 70
     6
  0
LTYPE
  5
14
330
5
100
AcDbSymbolTableRecord
100
AcDbLinetypeTableRecord
  2
ByBlock
 70
     0
  3

 72
    65
 73
     0
 40
0.0
  0
LTYPE
  5
15
330
5
100
AcDbSymbolTableRecord
100
AcDbLinetypeTableRecord
  2
ByLayer
 70
     0
  3

 72
    65
 73
     0
 40
0.0
  0
LTYPE
  5
16
330
5
100
AcDbSymbolTableRecord
100
AcDbLinetypeTableRecord
  2
Continuous
 70
     0
  3
Solid line
 72
    65
 73
     0
 40
0.0
  0
LTYPE
  5
6E
330
5
100
AcDbSymbolTableRecord
100
AcDbLinetypeTableRecord
  2
HIDDEN
 70
     0
  3
Hidden __ __ __ __ __ __ __ __ __ __ __ __ __ __
 72
    65
 73
     2
 40
1.905
 49
1.27
 74
     0
 49
-0.635
 74
     0
  0
LTYPE
  5
6F
330
5
100
AcDbSymbolTableRecord
100
AcDbLinetypeTableRecord
  2
PHANTOM
 70
     0
  3
Phantom ______  __  __  ______  __  __  ______
 72
    65
 73
     6
 40
12.7
 49
6.35
 74
     0
 49
-1.27
 74
     0
 49
1.27
 74
     0
 49
-1.27
 74
     0
 49
1.27
 74
     0
 49
-1.27
 74
     0
  0
LTYPE
  5
70
330
5
100
AcDbSymbolTableRecord
100
AcDbLinetypeTableRecord
  2
CENTER
 70
     0
  3
Center ____ _ ____ _ ____ _ ____ _ ____ _ ____
 72
    65
 73
     4
 40
10.16
 49
6.35
 74
     0
 49
-1.27
 74
     0
 49
1.27
 74
     0
 49
-1.27
 74
     0
  0
LTYPE
  5
71
330
5
100
AcDbSymbolTableRecord
100
AcDbLinetypeTableRecord
  2
CENTERX2
 70
     0
  3
Center (2x) ________  __  ________  __  _____
 72
    65
 73
     4
 40
20.32
 49
12.7
 74
     0
 49
-2.54
 74
     0
 49
2.54
 74
     0
 49
-2.54
 74
     0
  0
LTYPE
  5
72
330
5
100
AcDbSymbolTableRecord
100
AcDbLinetypeTableRecord
  2
DOT2
 70
     0
  3
Dot (.5x) ........................................
 72
    65
 73
     2
 40
0.635
 49
0.0
 74
     0
 49
-0.635
 74
     0
  0
ENDTAB
  0
TABLE
  2
LAYER
  5
2
330
0
100
AcDbSymbolTable
 70
    17
  0
LAYER
  5
10
330
2
100
AcDbSymbolTableRecord
100
AcDbLayerTableRecord
  2
0
 70
     0
 62
     7
  6
Continuous
370
    -3
390
F
  0
LAYER
  5
73
330
2
100
AcDbSymbolTableRecord
100
AcDbLayerTableRecord
  2
FORMAT
 70
     0
 62
     7
  6
Continuous
370
    -3
390
F
  0
LAYER
  5
74
330
2
100
AcDbSymbolTableRecord
100
AcDbLayerTableRecord
  2
YARDIMCI_GEOMETRI
 70
     0
 62
    -6
  6
Continuous
290
     0
370
    -3
390
F
  0
LAYER
  5
75
330
2
100
AcDbSymbolTableRecord
100
AcDbLayerTableRecord
  2
SAYFA_CERCEVESI
 70
     0
 62
     7
  6
Continuous
370
    25
390
F
  0
LAYER
  5
76
330
2
100
AcDbSymbolTableRecord
100
AcDbLayerTableRecord
  2
ANTET
 70
     0
 62
     7
  6
Continuous
370
    -3
390
F
  0
LAYER
  5
77
330
2
100
AcDbSymbolTableRecord
100
AcDbLayerTableRecord
  2
OLCU
 70
     0
 62
   150
  6
Continuous
370
    -3
390
F
  0
LAYER
  5
78
330
2
100
AcDbSymbolTableRecord
100
AcDbLayerTableRecord
  2
METIN
 70
     0
 62
    96
  6
Continuous
370
    -3
390
F
  0
LAYER
  5
79
330
2
100
AcDbSymbolTableRecord
100
AcDbLayerTableRecord
  2
BALON
 70
     0
 62
     5
  6
Continuous
370
    -3
390
F
  0
LAYER
  5
7A
330
2
100
AcDbSymbolTableRecord
100
AcDbLayerTableRecord
  2
VURGU
 70
     0
 62
     7
  6
Continuous
370
    -3
390
F
  0
LAYER
  5
7B
330
2
100
AcDbSymbolTableRecord
100
AcDbLayerTableRecord
  2
SILIK
 70
     0
 62
     7
  6
Continuous
370
    -3
390
F
  0
LAYER
  5
7C
330
2
100
AcDbSymbolTableRecord
100
AcDbLayerTableRecord
  2
MODEL
 70
     0
 62
     7
  6
Continuous
370
    -3
390
F
  0
LAYER
  5
7D
330
2
100
AcDbSymbolTableRecord
100
AcDbLayerTableRecord
  2
DETAYLANDıRMA
 70
     0
 62
   190
  6
Continuous
370
    -3
390
F
  0
LAYER
  5
7E
330
2
100
AcDbSymbolTableRecord
100
AcDbLayerTableRecord
  2
TOLERANS
 70
     0
 62
   230
  6
Continuous
370
    -3
390
F
  0
LAYER
  5
7F
330
2
100
AcDbSymbolTableRecord
100
AcDbLayerTableRecord
  2
MERKEZ_CIZGILERI
 70
     0
 62
    30
  6
Continuous
370
    -3
390
F
  0
LAYER
  5
80
330
2
100
AcDbSymbolTableRecord
100
AcDbLayerTableRecord
  2
KESIT-DETAY_CIZGILERI
 70
     0
 62
     7
  6
Continuous
370
    -3
390
F
  0
LAYER
  5
81
330
2
100
AcDbSymbolTableRecord
100
AcDbLayerTableRecord
  2
\U+041E\U+0421\U+0415\U+0412\U+042B\U+0415
 70
     0
 62
     7
  6
Continuous
370
    -3
390
F
  0
LAYER
  5
82
330
2
100
AcDbSymbolTableRecord
100
AcDbLayerTableRecord
  2
\U+0412\U+041E\U+0414\U+042F\U+041D\U+042B\U+0415_\U+0417\U+041D\U+0410\U+041A\U+0418
 70
     0
 62
    11
  6
Continuous
370
    -3
390
F
  0
ENDTAB
  0
TABLE
  2
STYLE
  5
3
330
0
100
AcDbSymbolTable
 70
     1
  0
STYLE
  5
11
330
3
100
AcDbSymbolTableRecord
100
AcDbTextStyleTableRecord
  2
Standard
 70
     0
 40
0.0
 41
1.0
 50
0.0
 71
     0
 42
3.5
  3
txt
  4

  0
ENDTAB
  0
TABLE
  2
VIEW
  5
6
330
0
100
AcDbSymbolTable
 70
     0
  0
ENDTAB
  0
TABLE
  2
UCS
  5
7
330
0
100
AcDbSymbolTable
 70
     0
  0
ENDTAB
  0
TABLE
  2
APPID
  5
9
330
0
100
AcDbSymbolTable
 70
     1
  0
APPID
  5
12
330
9
100
AcDbSymbolTableRecord
100
AcDbRegAppTableRecord
  2
ACAD
 70
     0
  0
ENDTAB
  0
TABLE
  2
DIMSTYLE
  5
A
330
0
100
AcDbSymbolTable
 70
     1
100
AcDbDimStyleTable
  0
DIMSTYLE
105
27
330
A
100
AcDbSymbolTableRecord
100
AcDbDimStyleTableRecord
  2
ISO-25
 70
     0
 41
2.5
 42
0.625
 43
3.75
 44
1.25
 73
     0
 74
     0
 77
     1
 78
     8
140
2.5
141
2.5
143
0.0393700787
147
0.625
171
     3
172
     1
178
     0
271
     2
272
     2
274
     3
278
    44
283
     0
284
     8
340
11
  0
ENDTAB
  0
TABLE
  2
BLOCK_RECORD
  5
1
330
0
100
AcDbSymbolTable
 70
     2
  0
BLOCK_RECORD
  5
1F
330
1
100
AcDbSymbolTableRecord
100
AcDbBlockTableRecord
  2
*Model_Space
340
22
  0
BLOCK_RECORD
  5
1B
330
1
100
AcDbSymbolTableRecord
100
AcDbBlockTableRecord
  2
*Paper_Space
340
1E
  0
BLOCK_RECORD
  5
23
330
1
100
AcDbSymbolTableRecord
100
AcDbBlockTableRecord
  2
*Paper_Space0
340
26
  0
BLOCK_RECORD
  5
88
330
1
100
AcDbSymbolTableRecord
100
AcDbBlockTableRecord
  2
SW_CENTERMARKSYMBOL_0
340
0
102
{BLKREFS
331
93
102
}
  0
ENDTAB
  0
ENDSEC
  0
SECTION
  2
BLOCKS
  0
BLOCK
  5
20
330
1F
100
AcDbEntity
  8
0
100
AcDbBlockBegin
  2
*Model_Space
 70
     0
 10
0.0
 20
0.0
 30
0.0
  3
*Model_Space
  1

  0
ENDBLK
  5
21
330
1F
100
AcDbEntity
  8
0
100
AcDbBlockEnd
  0
BLOCK
  5
1C
330
1B
100
AcDbEntity
 67
     1
  8
0
100
AcDbBlockBegin
  2
*Paper_Space
 70
     0
 10
0.0
 20
0.0
 30
0.0
  3
*Paper_Space
  1

  0
ENDBLK
  5
1D
330
1B
100
AcDbEntity
 67
     1
  8
0
100
AcDbBlockEnd
  0
BLOCK
  5
24
330
23
100
AcDbEntity
  8
0
100
AcDbBlockBegin
  2
*Paper_Space0
 70
     0
 10
0.0
 20
0.0
 30
0.0
  3
*Paper_Space0
  1

  0
ENDBLK
  5
25
330
23
100
AcDbEntity
  8
0
100
AcDbBlockEnd
  0
BLOCK
  5
89
330
88
100
AcDbEntity
  8
0
100
AcDbBlockBegin
  2
SW_CENTERMARKSYMBOL_0
 70
     0
 10
0.0
 20
0.0
 30
0.0
  3
SW_CENTERMARKSYMBOL_0
  1

  0
LINE
  5
8B
330
88
100
AcDbEntity
  8
FORMAT
 62
     0
100
AcDbLine
 10
0.0
 20
0.0
 30
0.0
 11
0.0
 21
2.5
 31
0.0
  0
LINE
  5
8C
330
88
100
AcDbEntity
  8
FORMAT
 62
     0
100
AcDbLine
 10
0.0
 20
0.0
 30
0.0
 11
-2.5
 21
0.0
 31
0.0
  0
LINE
  5
8D
330
88
100
AcDbEntity
  8
FORMAT
 62
     0
100
AcDbLine
 10
0.0
 20
0.0
 30
0.0
 11
0.0
 21
-2.5
 31
0.0
  0
LINE
  5
8E
330
88
100
AcDbEntity
  8
FORMAT
 62
     0
100
AcDbLine
 10
0.0
 20
0.0
 30
0.0
 11
2.5
 21
0.0
 31
0.0
  0
LINE
  5
8F
330
88
100
AcDbEntity
  8
FORMAT
 62
     0
100
AcDbLine
 10
0.0
 20
5.0
 30
0.0
 11
0.0
 21
72.35
 31
0.0
  0
LINE
  5
90
330
88
100
AcDbEntity
  8
FORMAT
 62
     0
100
AcDbLine
 10
-5.0
 20
0.0
 30
0.0
 11
-72.35
 21
0.0
 31
0.0
  0
LINE
  5
91
330
88
100
AcDbEntity
  8
FORMAT
 62
     0
100
AcDbLine
 10
0.0
 20
-5.0
 30
0.0
 11
0.0
 21
-72.35
 31
0.0
  0
LINE
  5
92
330
88
100
AcDbEntity
  8
FORMAT
 62
     0
100
AcDbLine
 10
5.0
 20
0.0
 30
0.0
 11
72.35
 21
0.0
 31
0.0
  0
ENDBLK
  5
8A
330
88
100
AcDbEntity
  8
0
100
AcDbBlockEnd
  0
ENDSEC
  0
SECTION
  2
ENTITIES
  0
CIRCLE
  5
83
330
1F
100
AcDbEntity
  8
0
  6
Continuous
 62
     7
370
    25
100
AcDbCircle
 10
137.9424909615
 20
108.5958316346
 30
0.0
 40
57.14999999999995
  0
CIRCLE
  5
84
330
1F
100
AcDbEntity
  8
0
  6
Continuous
 62
     7
370
    25
100
AcDbCircle
 10
137.9424909615
 20
108.5958316346
 30
0.0
 40
51.14999999999995
  0
CIRCLE
  5
85
330
1F
100
AcDbEntity
  8
0
  6
Continuous
 62
     7
370
    25
100
AcDbCircle
 10
137.9424909615
 20
108.5958316346
 30
0.0
 40
59.65000000000001
  0
CIRCLE
  5
86
330
1F
100
AcDbEntity
  8
0
  6
Continuous
 62
     7
370
    25
100
AcDbCircle
 10
137.9424909615
 20
108.5958316346
 30
0.0
 40
69.85
  0
CIRCLE
  5
87
330
1F
100
AcDbEntity
  8
0
  6
Continuous
 62
     7
370
    25
100
AcDbCircle
 10
137.9424909615
 20
108.5958316346
 30
0.0
 40
45.0
  0
INSERT
  5
93
330
1F
100
AcDbEntity
  8
FORMAT
 62
     7
100
AcDbBlockReference
  2
SW_CENTERMARKSYMBOL_0
 10
137.9424909615
 20
108.5958316346
 30
0.0
  0
LINE
  5
94
330
1F
100
AcDbEntity
  8
0
  6
Continuous
 62
     7
370
    25
100
AcDbLine
 10
-478.2160356942
 20
178.4458316346
 30
0.0
 11
-529.7160356942
 21
163.5958316346
 31
0.0
  0
LINE
  5
95
330
1F
100
AcDbEntity
  8
0
  6
Continuous
 62
     7
370
    25
100
AcDbLine
 10
-529.7160356942
 20
53.5958316346
 30
0.0
 11
-478.2160356942
 21
38.7458316346
 31
0.0
  0
LINE
  5
96
330
1F
100
AcDbEntity
  8
0
  6
Continuous
 62
     7
370
    25
100
AcDbLine
 10
-384.7160356942
 20
178.4458316346
 30
0.0
 11
-478.2160356942
 21
178.4458316346
 31
0.0
  0
LINE
  5
97
330
1F
100
AcDbEntity
  8
0
  6
Continuous
 62
     7
370
    25
100
AcDbLine
 10
-478.2160356942
 20
38.7458316346
 30
0.0
 11
-384.7160356942
 21
38.7458316346
 31
0.0
  0
LINE
  5
98
330
1F
100
AcDbEntity
  8
0
  6
Continuous
 62
     7
370
    25
100
AcDbLine
 10
-139.7160356942
 20
168.2458316346
 30
0.0
 11
-384.7160356942
 21
168.2458316346
 31
0.0
  0
LINE
  5
99
330
1F
100
AcDbEntity
  8
0
  6
Continuous
 62
     7
370
    25
100
AcDbLine
 10
-384.7160356942
 20
48.9458316346
 30
0.0
 11
-139.7160356942
 21
48.9458316346
 31
0.0
  0
LINE
  5
9A
330
1F
100
AcDbEntity
  8
0
  6
Continuous
 62
     7
370
    25
100
AcDbLine
 10
-89.7160356942
 20
165.7458316346
 30
0.0
 11
-139.7160356942
 21
165.7458316346
 31
0.0
  0
LINE
  5
9B
330
1F
100
AcDbEntity
  8
0
  6
Continuous
 62
     7
370
    25
100
AcDbLine
 10
-139.7160356942
 20
51.4458316346
 30
0.0
 11
-89.7160356942
 21
51.4458316346
 31
0.0
  0
LINE
  5
9C
330
1F
100
AcDbEntity
  8
0
  6
Continuous
 62
     7
370
    25
100
AcDbLine
 10
-529.7160356942
 20
163.5958316346
 30
0.0
 11
-685.7160356942
 21
163.5958316346
 31
0.0
  0
LINE
  5
9D
330
1F
100
AcDbEntity
  8
0
  6
Continuous
 62
     7
370
    25
100
AcDbLine
 10
-685.7160356942
 20
53.5958316346
 30
0.0
 11
-529.7160356942
 21
53.5958316346
 31
0.0
  0
LINE
  5
9E
330
1F
100
AcDbEntity
  8
0
  6
Continuous
 62
     7
370
    25
100
AcDbLine
 10
-529.7160356942
 20
163.5958316346
 30
0.0
 11
-529.7160356942
 21
53.5958316346
 31
0.0
  0
LINE
  5
9F
330
1F
100
AcDbEntity
  8
0
  6
Continuous
 62
     7
370
    25
100
AcDbLine
 10
-478.2160356942
 20
178.4458316346
 30
0.0
 11
-478.2160356942
 21
38.7458316346
 31
0.0
  0
LINE
  5
A0
330
1F
100
AcDbEntity
  8
0
  6
Continuous
 62
     7
370
    25
100
AcDbLine
 10
-384.7160356942
 20
178.4458316346
 30
0.0
 11
-384.7160356942
 21
38.7458316346
 31
0.0
  0
LINE
  5
A1
330
1F
100
AcDbEntity
  8
0
  6
Continuous
 62
     7
370
    25
100
AcDbLine
 10
-139.7160356942
 20
168.2458316346
 30
0.0
 11
-139.7160356942
 21
48.9458316346
 31
0.0
  0
LINE
  5
A2
330
1F
100
AcDbEntity
  8
0
  6
Continuous
 62
     7
370
    25
100
AcDbLine
 10
-89.7160356942
 20
165.7458316346
 30
0.0
 11
-89.7160356942
 21
51.4458316346
 31
0.0
  0
LINE
  5
A3
330
1F
100
AcDbEntity
  8
0
  6
Continuous
 62
     7
370
    25
100
AcDbLine
 10
-685.7160356942
 20
163.5958316346
 30
0.0
 11
-685.7160356942
 21
53.5958316346
 31
0.0
  0
LINE
  5
A4
330
1F
100
AcDbEntity
  8
0
  6
Continuous
 62
     7
370
    25
100
AcDbLine
 10
763.1162260266
 20
38.7458316346
 30
0.0
 11
814.6162260266
 21
53.5958316346
 31
0.0
  0
LINE
  5
A5
330
1F
100
AcDbEntity
  8
0
  6
Continuous
 62
     7
370
    25
100
AcDbLine
 10
814.6162260266
 20
163.5958316346
 30
0.0
 11
763.1162260266
 21
178.4458316346
 31
0.0
  0
LINE
  5
A6
330
1F
100
AcDbEntity
  8
0
  6
Continuous
 62
     7
370
    25
100
AcDbLine
 10
669.6162260266
 20
38.7458316346
 30
0.0
 11
763.1162260266
 21
38.7458316346
 31
0.0
  0
LINE
  5
A7
330
1F
100
AcDbEntity
  8
0
  6
Continuous
 62
     7
370
    25
100
AcDbLine
 10
763.1162260266
 20
178.4458316346
 30
0.0
 11
669.6162260266
 21
178.4458316346
 31
0.0
  0
LINE
  5
A8
330
1F
100
AcDbEntity
  8
0
  6
Continuous
 62
     7
370
    25
100
AcDbLine
 10
424.6162260266
 20
48.9458316346
 30
0.0
 11
669.6162260266
 21
48.9458316346
 31
0.0
  0
LINE
  5
A9
330
1F
100
AcDbEntity
  8
0
  6
Continuous
 62
     7
370
    25
100
AcDbLine
 10
669.6162260266
 20
168.2458316346
 30
0.0
 11
424.6162260266
 21
168.2458316346
 31
0.0
  0
LINE
  5
AA
330
1F
100
AcDbEntity
  8
0
  6
Continuous
 62
     7
370
    25
100
AcDbLine
 10
374.6162260266
 20
51.4458316346
 30
0.0
 11
424.6162260266
 21
51.4458316346
 31
0.0
  0
LINE
  5
AB
330
1F
100
AcDbEntity
  8
0
  6
Continuous
 62
     7
370
    25
100
AcDbLine
 10
424.6162260266
 20
165.7458316346
 30
0.0
 11
374.6162260266
 21
165.7458316346
 31
0.0
  0
LINE
  5
AC
330
1F
100
AcDbEntity
  8
0
  6
Continuous
 62
     7
370
    25
100
AcDbLine
 10
814.6162260266
 20
53.5958316346
 30
0.0
 11
970.6162260266
 21
53.5958316346
 31
0.0
  0
LINE
  5
AD
330
1F
100
AcDbEntity
  8
0
  6
Continuous
 62
     7
370
    25
100
AcDbLine
 10
970.6162260266
 20
163.5958316346
 30
0.0
 11
814.6162260266
 21
163.5958316346
 31
0.0
  0
LINE
  5
AE
330
1F
100
AcDbEntity
  8
0
  6
Continuous
 62
     7
370
    25
100
AcDbLine
 10
814.6162260266
 20
108.5958316346
 30
0.0
 11
814.6162260266
 21
163.5958316346
 31
0.0
  0
LINE
  5
AF
330
1F
100
AcDbEntity
  8
0
  6
Continuous
 62
     7
370
    25
100
AcDbLine
 10
814.6162260266
 20
53.5958316346
 30
0.0
 11
814.6162260266
 21
108.5958316346
 31
0.0
  0
LINE
  5
B0
330
1F
100
AcDbEntity
  8
0
  6
Continuous
 62
     7
370
    25
100
AcDbLine
 10
763.1162260266
 20
108.5958316346
 30
0.0
 11
763.1162260266
 21
178.4458316346
 31
0.0
  0
LINE
  5
B1
330
1F
100
AcDbEntity
  8
0
  6
Continuous
 62
     7
370
    25
100
AcDbLine
 10
763.1162260266
 20
38.7458316346
 30
0.0
 11
763.1162260266
 21
108.5958316346
 31
0.0
  0
LINE
  5
B2
330
1F
100
AcDbEntity
  8
0
  6
Continuous
 62
     7
370
    25
100
AcDbLine
 10
669.6162260266
 20
108.5958316346
 30
0.0
 11
669.6162260266
 21
178.4458316346
 31
0.0
  0
LINE
  5
B3
330
1F
100
AcDbEntity
  8
0
  6
Continuous
 62
     7
370
    25
100
AcDbLine
 10
669.6162260266
 20
38.7458316346
 30
0.0
 11
669.6162260266
 21
108.5958316346
 31
0.0
  0
LINE
  5
B4
330
1F
100
AcDbEntity
  8
0
  6
Continuous
 62
     7
370
    25
100
AcDbLine
 10
424.6162260266
 20
108.5958316346
 30
0.0
 11
424.6162260266
 21
168.2458316346
 31
0.0
  0
LINE
  5
B5
330
1F
100
AcDbEntity
  8
0
  6
Continuous
 62
     7
370
    25
100
AcDbLine
 10
424.6162260266
 20
48.9458316346
 30
0.0
 11
424.6162260266
 21
108.5958316346
 31
0.0
  0
LINE
  5
B6
330
1F
100
AcDbEntity
  8
0
  6
Continuous
 62
     7
370
    25
100
AcDbLine
 10
374.6162260266
 20
108.5958316346
 30
0.0
 11
374.6162260266
 21
165.7458316346
 31
0.0
  0
LINE
  5
B7
330
1F
100
AcDbEntity
  8
0
  6
Continuous
 62
     7
370
    25
100
AcDbLine
 10
374.6162260266
 20
51.4458316346
 30
0.0
 11
374.6162260266
 21
108.5958316346
 31
0.0
  0
LINE
  5
B8
330
1F
100
AcDbEntity
  8
0
  6
Continuous
 62
     7
370
    25
100
AcDbLine
 10
970.6162260266
 20
108.5958316346
 30
0.0
 11
970.6162260266
 21
163.5958316346
 31
0.0
  0
LINE
  5
B9
330
1F
100
AcDbEntity
  8
0
  6
Continuous
 62
     7
370
    25
100
AcDbLine
 10
970.6162260266
 20
53.5958316346
 30
0.0
 11
970.6162260266
 21
108.5958316346
 31
0.0
  0
LINE
  5
BA
330
1F
100
AcDbEntity
  8
0
  6
Continuous
 62
     7
370
    25
100
AcDbLine
 10
68.0924909615
 20
-448.3853715804
 30
0.0
 11
82.9424909615
 21
-499.8853715804
 31
0.0
  0
LINE
  5
BB
330
1F
100
AcDbEntity
  8
0
  6
Continuous
 62
     7
370
    25
100
AcDbLine
 10
192.9424909615
 20
-499.8853715804
 30
0.0
 11
207.7924909615
 21
-448.3853715804
 31
0.0
  0
LINE
  5
BC
330
1F
100
AcDbEntity
  8
0
  6
Continuous
 62
     7
370
    25
100
AcDbLine
 10
68.0924909615
 20
-354.8853715804
 30
0.0
 11
68.0924909615
 21
-448.3853715804
 31
0.0
  0
LINE
  5
BD
330
1F
100
AcDbEntity
  8
0
  6
Continuous
 62
     7
370
    25
100
AcDbLine
 10
207.7924909615
 20
-448.3853715804
 30
0.0
 11
207.7924909615
 21
-354.8853715804
 31
0.0
  0
LINE
  5
BE
330
1F
100
AcDbEntity
  8
0
  6
Continuous
 62
     7
370
    25
100
AcDbLine
 10
78.2924909615
 20
-109.8853715804
 30
0.0
 11
78.2924909615
 21
-354.8853715804
 31
0.0
  0
LINE
  5
BF
330
1F
100
AcDbEntity
  8
0
  6
Continuous
 62
     7
370
    25
100
AcDbLine
 10
197.5924909615
 20
-354.8853715804
 30
0.0
 11
197.5924909615
 21
-109.8853715804
 31
0.0
  0
LINE
  5
C0
330
1F
100
AcDbEntity
  8
0
  6
Continuous
 62
     7
370
    25
100
AcDbLine
 10
80.7924909615
 20
-59.8853715804
 30
0.0
 11
80.7924909615
 21
-109.8853715804
 31
0.0
  0
LINE
  5
C1
330
1F
100
AcDbEntity
  8
0
  6
Continuous
 62
     7
370
    25
100
AcDbLine
 10
195.0924909615
 20
-109.8853715804
 30
0.0
 11
195.0924909615
 21
-59.8853715804
 31
0.0
  0
LINE
  5
C2
330
1F
100
AcDbEntity
  8
0
  6
Continuous
 62
     7
370
    25
100
AcDbLine
 10
82.9424909615
 20
-499.8853715804
 30
0.0
 11
82.9424909615
 21
-655.8853715804
 31
0.0
  0
LINE
  5
C3
330
1F
100
AcDbEntity
  8
0
  6
Continuous
 62
     7
370
    25
100
AcDbLine
 10
192.9424909615
 20
-655.8853715804
 30
0.0
 11
192.9424909615
 21
-499.8853715804
 31
0.0
  0
LINE
  5
C4
330
1F
100
AcDbEntity
  8
0
  6
Continuous
 62
     7
370
    25
100
AcDbLine
 10
82.9424909615
 20
-499.8853715804
 30
0.0
 11
192.9424909615
 21
-499.8853715804
 31
0.0
  0
LINE
  5
C5
330
1F
100
AcDbEntity
  8
0
  6
Continuous
 62
     7
370
    25
100
AcDbLine
 10
68.0924909615
 20
-448.3853715804
 30
0.0
 11
207.7924909615
 21
-448.3853715804
 31
0.0
  0
LINE
  5
C6
330
1F
100
AcDbEntity
  8
0
  6
Continuous
 62
     7
370
    25
100
AcDbLine
 10
68.0924909615
 20
-354.8853715804
 30
0.0
 11
207.7924909615
 21
-354.8853715804
 31
0.0
  0
LINE
  5
C7
330
1F
100
AcDbEntity
  8
0
  6
Continuous
 62
     7
370
    25
100
AcDbLine
 10
78.2924909615
 20
-109.8853715804
 30
0.0
 11
197.5924909615
 21
-109.8853715804
 31
0.0
  0
LINE
  5
C8
330
1F
100
AcDbEntity
  8
0
  6
Continuous
 62
     7
370
    25
100
AcDbLine
 10
80.7924909615
 20
-59.8853715804
 30
0.0
 11
195.0924909615
 21
-59.8853715804
 31
0.0
  0
LINE
  5
C9
330
1F
100
AcDbEntity
  8
0
  6
Continuous
 62
     7
370
    25
100
AcDbLine
 10
82.9424909615
 20
-655.8853715804
 30
0.0
 11
192.9424909615
 21
-655.8853715804
 31
0.0
  0
LINE
  5
CA
330
1F
100
AcDbEntity
  8
0
  6
Continuous
 62
     7
370
    25
100
AcDbLine
 10
207.7924909615
 20
657.7413006589
 30
0.0
 11
192.9424909615
 21
709.2413006589
 31
0.0
  0
LINE
  5
CB
330
1F
100
AcDbEntity
  8
0
  6
Continuous
 62
     7
370
    25
100
AcDbLine
 10
82.9424909615
 20
709.2413006589
 30
0.0
 11
68.0924909615
 21
657.7413006589
 31
0.0
  0
LINE
  5
CC
330
1F
100
AcDbEntity
  8
0
  6
Continuous
 62
     7
370
    25
100
AcDbLine
 10
207.7924909615
 20
564.2413006589
 30
0.0
 11
207.7924909615
 21
657.7413006589
 31
0.0
  0
LINE
  5
CD
330
1F
100
AcDbEntity
  8
0
  6
Continuous
 62
     7
370
    25
100
AcDbLine
 10
68.0924909615
 20
657.7413006589
 30
0.0
 11
68.0924909615
 21
564.2413006589
 31
0.0
  0
LINE
  5
CE
330
1F
100
AcDbEntity
  8
0
  6
Continuous
 62
     7
370
    25
100
AcDbLine
 10
197.5924909615
 20
319.2413006589
 30
0.0
 11
197.5924909615
 21
564.2413006589
 31
0.0
  0
LINE
  5
CF
330
1F
100
AcDbEntity
  8
0
  6
Continuous
 62
     7
370
    25
100
AcDbLine
 10
78.2924909615
 20
564.2413006589
 30
0.0
 11
78.2924909615
 21
319.2413006589
 31
0.0
  0
LINE
  5
D0
330
1F
100
AcDbEntity
  8
0
  6
Continuous
 62
     7
370
    25
100
AcDbLine
 10
195.0924909615
 20
269.2413006589
 30
0.0
 11
195.0924909615
 21
319.2413006589
 31
0.0
  0
LINE
  5
D1
330
1F
100
AcDbEntity
  8
0
  6
Continuous
 62
     7
370
    25
100
AcDbLine
 10
80.7924909615
 20
319.2413006589
 30
0.0
 11
80.7924909615
 21
269.2413006589
 31
0.0
  0
LINE
  5
D2
330
1F
100
AcDbEntity
  8
0
  6
Continuous
 62
     7
370
    25
100
AcDbLine
 10
192.9424909615
 20
709.2413006589
 30
0.0
 11
192.9424909615
 21
865.2413006589
 31
0.0
  0
LINE
  5
D3
330
1F
100
AcDbEntity
  8
0
  6
Continuous
 62
     7
370
    25
100
AcDbLine
 10
82.9424909615
 20
865.2413006589
 30
0.0
 11
82.9424909615
 21
709.2413006589
 31
0.0
  0
LINE
  5
D4
330
1F
100
AcDbEntity
  8
0
  6
Continuous
 62
     7
370
    25
100
AcDbLine
 10
192.9424909615
 20
709.2413006589
 30
0.0
 11
82.9424909615
 21
709.2413006589
 31
0.0
  0
LINE
  5
D5
330
1F
100
AcDbEntity
  8
0
  6
Continuous
 62
     7
370
    25
100
AcDbLine
 10
207.7924909615
 20
657.7413006589
 30
0.0
 11
68.0924909615
 21
657.7413006589
 31
0.0
  0
LINE
  5
D6
330
1F
100
AcDbEntity
  8
0
  6
Continuous
 62
     7
370
    25
100
AcDbLine
 10
207.7924909615
 20
564.2413006589
 30
0.0
 11
68.0924909615
 21
564.2413006589
 31
0.0
  0
LINE
  5
D7
330
1F
100
AcDbEntity
  8
0
  6
Continuous
 62
     7
370
    25
100
AcDbLine
 10
197.5924909615
 20
319.2413006589
 30
0.0
 11
78.2924909615
 21
319.2413006589
 31
0.0
  0
LINE
  5
D8
330
1F
100
AcDbEntity
  8
0
  6
Continuous
 62
     7
370
    25
100
AcDbLine
 10
195.0924909615
 20
269.2413006589
 30
0.0
 11
80.7924909615
 21
269.2413006589
 31
0.0
  0
LINE
  5
D9
330
1F
100
AcDbEntity
  8
0
  6
Continuous
 62
     7
370
    25
100
AcDbLine
 10
192.9424909615
 20
865.2413006589
 30
0.0
 11
82.9424909615
 21
865.2413006589
 31
0.0
  0
LINE
  5
DA
330
1F
100
AcDbEntity
  8
0
  6
Continuous
 62
     7
370
    25
100
AcDbLine
 10
351.0035774726
 20
-167.0328766461
 30
0.0
 11
386.3589165319
 21
-187.4430794417
 31
0.0
  0
LINE
  5
DB
330
1F
100
AcDbEntity
  8
0
  6
Continuous
 62
     7
370
    25
100
AcDbLine
 10
443.5042721021
 20
-88.4536944716
 30
0.0
 11
408.1489330428
 21
-68.043491676
 31
0.0
  0
LINE
  5
DC
330
1F
100
AcDbEntity
  8
0
  6
Continuous
 62
     7
370
    25
100
AcDbLine
 10
385.1090181161
 20
-189.6082015976
 30
0.0
 11
558.3501795069
 21
-289.6181952959
 31
0.0
  0
LINE
  5
DD
330
1F
100
AcDbEntity
  8
0
  6
Continuous
 62
     7
370
    25
100
AcDbLine
 10
617.9953319086
 20
-186.2985660139
 30
0.0
 11
444.7541705179
 21
-86.2885723156
 31
0.0
  0
LINE
  5
DE
330
1F
100
AcDbEntity
  8
0
  6
Continuous
 62
     7
370
    25
100
AcDbLine
 10
553.2505939704
 20
-298.4518936922
 30
0.0
 11
619.3650780113
 21
-336.6189729199
 31
0.0
  0
LINE
  5
DF
330
1F
100
AcDbEntity
  8
0
  6
Continuous
 62
     7
370
    25
100
AcDbLine
 10
689.209401486
 20
-215.6319468453
 30
0.0
 11
623.094917445
 21
-177.4648676176
 31
0.0
  0
LINE
  5
E0
330
1F
100
AcDbEntity
  8
0
  6
Continuous
 62
     7
370
    25
100
AcDbLine
 10
627.220960366
 20
-339.4595071335
 30
0.0
 11
669.3912079698
 21
-347.0172973061
 31
0.0
  0
LINE
  5
E1
330
1F
100
AcDbEntity
  8
0
  6
Continuous
 62
     7
370
    25
100
AcDbLine
 10
723.2312569473
 20
-253.7534916676
 30
0.0
 11
695.5978225674
 21
-221.0144739726
 31
0.0
  0
LINE
  5
E2
330
1F
100
AcDbEntity
  8
0
  6
Continuous
 62
     7
370
    25
100
AcDbLine
 10
666.0392399345
 20
-346.4165545427
 30
0.0
 11
773.5141316974
 21
-408.4604889152
 31
0.0
  0
LINE
  5
E3
330
1F
100
AcDbEntity
  8
0
  6
Continuous
 62
     7
370
    25
100
AcDbLine
 10
828.5096619924
 20
-313.1951140533
 30
0.0
 11
721.0347702295
 21
-251.1511796809
 31
0.0
  0
LWPOLYLINE
  5
E4
330
1F
100
AcDbEntity
  8
0
  6
Continuous
 62
     7
370
    25
100
AcDbPolyline
 90
       81
 70
   128
 43
0.0
 10
419.9874078025
 20
-94.2093223657
 10
419.8628337057
 20
-90.6199196406
 10
419.4898794562
 20
-87.1964769675
 10
418.8708444409
 20
-83.9601010089
 10
418.0095452164
 20
-80.9307450988
 10
416.911291979
 20
-78.1270862236
 10
415.5828558251
 20
-75.5664098728
 10
414.0324270052
 20
-73.2645034676
 10
412.2695644287
 20
-71.2355590262
 10
410.3051367295
 20
-69.4920856661
 10
408.1512552577
 20
-68.04483248
 10
405.8211994087
 20
-66.9027222654
 10
403.3293347517
 20
-66.0727965113
 10
400.6910244609
 20
-65.560171986
 10
397.9225345966
 20
-65.3680091902
 10
395.0409338194
 20
-65.4974928715
 10
392.0639881563
 20
-65.9478247199
 10
389.0100514673
 20
-66.7162282897
 10
385.8979522877
 20
-67.7979661176
 10
382.7468777437
 20
-69.1863689299
 10
379.5762552577
 20
-70.8728767618
 10
376.4056327717
 20
-72.8470917316
 10
373.2545582277
 20
-75.0968421475
 10
370.142459048
 20
-77.6082575501
 10
367.0885223591
 20
-80.3658542283
 10
364.111576696
 20
-83.3526306815
 10
361.2299759188
 20
-86.5501724399
 10
358.4614860545
 20
-89.938765595
 10
355.8231757637
 20
-93.4975183434
 10
353.3313111067
 20
-97.2044897908
 10
351.0012552577
 20
-101.0368252257
 10
348.8473737858
 20
-104.9708970257
 10
346.8829460867
 20
-108.9824503299
 10
345.1200835101
 20
-113.0467525783
 10
343.5696546903
 20
-117.1387459959
 10
342.2412185363
 20
-121.2332020826
 10
341.1429652989
 20
-125.3048771552
 10
340.2816660745
 20
-129.3286679827
 10
339.6626310592
 20
-133.2797665567
 10
339.2896768096
 20
-137.1338130407
 10
339.1651027129
 20
-140.8670459564
 10
339.2896768096
 20
-144.4564486815
 10
339.6626310592
 20
-147.8798913546
 10
340.2816660745
 20
-151.1162673132
 10
341.1429652989
 20
-154.1456232234
 10
342.2412185363
 20
-156.9492820985
 10
343.5696546903
 20
-159.5099584493
 10
345.1200835101
 20
-161.8118648546
 10
346.8829460867
 20
-163.8408092959
 10
348.8473737858
 20
-165.5842826561
 10
351.0012552577
 20
-167.0315358421
 10
353.3313111067
 20
-168.1736460568
 10
355.8231757637
 20
-169.0035718109
 10
358.4614860545
 20
-169.5161963361
 10
361.2299759188
 20
-169.7083591319
 10
364.111576696
 20
-169.5788754506
 10
367.0885223591
 20
-169.1285436022
 10
370.142459048
 20
-168.3601400324
 10
373.2545582277
 20
-167.2784022046
 10
376.4056327717
 20
-165.8899993922
 10
379.5762552577
 20
-164.2034915603
 10
382.7468777437
 20
-162.2292765906
 10
385.8979522877
 20
-159.9795261747
 10
389.0100514673
 20
-157.4681107721
 10
392.0639881563
 20
-154.7105140939
 10
395.0409338194
 20
-151.7237376406
 10
397.9225345966
 20
-148.5261958823
 10
400.6910244609
 20
-145.1376027271
 10
403.3293347517
 20
-141.5788499787
 10
405.8211994087
 20
-137.8718785313
 10
408.1512552577
 20
-134.0395430964
 10
410.3051367295
 20
-130.1054712964
 10
412.2695644287
 20
-126.0939179922
 10
414.0324270052
 20
-122.0296157438
 10
415.5828558251
 20
-117.9376223262
 10
416.911291979
 20
-113.8431662395
 10
418.0095452164
 20
-109.771491167
 10
418.8708444409
 20
-105.7477003394
 10
419.4898794562
 20
-101.7966017654
 10
419.8628337057
 20
-97.9425552814
 10
419.9874078025
 20
-94.2093223657
  0
LWPOLYLINE
  5
E5
330
1F
100
AcDbEntity
  8
0
  6
Continuous
 62
     7
370
    25
100
AcDbPolyline
 90
       76
 70
   128
 43
0.0
 10
415.7447671154
 20
-96.6585467012
 10
415.6179190536
 20
-93.2368804918
 10
415.2382646161
 20
-89.9856704671
 10
414.6084668061
 20
-86.9277215296
 10
413.7329432027
 20
-84.0844829938
 10
412.617834975
 20
-81.4758981353
 10
411.2709638058
 20
-79.1202643025
 10
409.7017770288
 20
-77.0341045743
 10
407.9212813618
 20
-75.2320518622
 10
405.9419657025
 20
-73.7267462713
 10
403.7777135281
 20
-72.5287464388
 10
401.4437055127
 20
-71.6464554726
 10
398.9563130456
 20
-71.08606201
 10
396.3329833975
 20
-70.8514968085
 10
393.5921173413
 20
-70.9444051744
 10
390.752940083
 20
-71.3641354224
 10
387.835366411
 20
-72.1077434462
 10
384.8598610085
 20
-73.1700133699
 10
381.8472949078
 20
-74.5434941333
 10
378.8187990958
 20
-76.2185517555
 10
375.7956162945
 20
-78.183436911
 10
372.7989519592
 20
-80.424367342
 10
369.849825537
 20
-82.9256245318
 10
366.9689230309
 20
-85.6696639583
 10
364.176451902
 20
-88.6372381566
 10
361.4919993288
 20
-91.8075317257
 10
358.9343948175
 20
-95.1583073343
 10
356.5215781261
 20
-98.6660616988
 10
354.2704734299
 20
-102.3061904429
 10
352.1968706111
 20
-106.0531606787
 10
350.3153145036
 20
-109.8806901022
 10
348.6390028714
 20
-113.7619313447
 10
347.1796938364
 20
-117.6696602874
 10
345.9476234028
 20
-121.5764670196
 10
344.9514336596
 20
-125.454948099
 10
344.198112162
 20
-129.2778987676
 10
343.692942919
 20
-133.0185037732
 10
343.43946933
 20
-136.6505254594
 10
343.43946933
 20
-140.1484878035
 10
343.692942919
 20
-143.487855113
 10
344.198112162
 20
-146.6452041256
 10
344.9514336596
 20
-149.5983883065
 10
345.9476234028
 20
-152.3266931906
 10
347.1796938364
 20
-154.8109816794
 10
348.6390028714
 20
-157.033828274
 10
350.3153145036
 20
-158.9796413027
 10
352.1968706111
 20
-160.6347722853
 10
354.2704734299
 20
-161.987611667
 10
356.5215781261
 20
-163.0286702516
 10
358.9343948175
 20
-163.7506457612
 10
361.4919993288
 20
-164.1484740563
 10
364.176451902
 20
-164.2193646571
 10
366.9689230309
 20
-163.9628203172
 10
369.849825537
 20
-163.3806405107
 10
372.7989519592
 20
-162.4769088107
 10
375.7956162945
 20
-161.2579642457
 10
378.8187990958
 20
-159.732356836
 10
381.8472949078
 20
-157.9107876215
 10
384.8598610085
 20
-155.8060336014
 10
387.835366411
 20
-153.4328581128
 10
390.752940083
 20
-150.8079072768
 10
393.5921173413
 20
-147.9495932374
 10
396.3329833975
 20
-144.8779650138
 10
398.9563130456
 20
-141.6145678712
 10
401.4437055127
 20
-138.1822921958
 10
403.7777135281
 20
-134.6052129352
 10
405.9419657025
 20
-130.9084207304
 10
407.9212813618
 20
-127.1178459226
 10
409.7017770288
 20
-123.2600766706
 10
411.2709638058
 20
-119.3621724537
 10
412.617834975
 20
-115.4514742695
 10
413.7329432027
 20
-111.5554128559
 10
414.6084668061
 20
-107.7013162844
 10
415.2382646161
 20
-103.9162182732
 10
415.6179190536
 20
-100.2266685654
 10
415.7447671154
 20
-96.6585467012
  0
LWPOLYLINE
  5
E6
330
1F
100
AcDbEntity
  8
0
  6
Continuous
 62
     7
370
    25
100
AcDbPolyline
 90
       12
 70
   128
 43
0.0
 10
455.3427468618
 20
-114.6195251613
 10
455.2181727651
 20
-111.0301224362
 10
454.8452185155
 20
-107.6066797631
 10
454.2261835002
 20
-104.3703038045
 10
453.3648842758
 20
-101.3409478943
 10
452.2666310384
 20
-98.5372890192
 10
450.9381948844
 20
-95.9766126684
 10
449.3877660646
 20
-93.6747062631
 10
447.624903488
 20
-91.6457618218
 10
445.6604757889
 20
-89.9022884616
 10
443.506594317
 20
-88.4550352756
 10
443.5042721021
 20
-88.4536944716
  0
LWPOLYLINE
  5
E7
330
1F
100
AcDbEntity
  8
0
  6
Continuous
 62
     7
370
    25
100
AcDbPolyline
 90
       31
 70
   128
 43
0.0
 10
386.3589165319
 20
-187.4430794417
 10
388.686650166
 20
-188.5838488523
 10
391.178514823
 20
-189.4137746064
 10
393.8168251138
 20
-189.9263991317
 10
396.5853149781
 20
-190.1185619275
 10
399.4669157553
 20
-189.9890782462
 10
402.4438614184
 20
-189.5387463978
 10
405.4977981074
 20
-188.770342828
 10
408.609897287
 20
-187.6886050001
 10
411.760971831
 20
-186.3002021878
 10
414.931594317
 20
-184.6136943559
 10
418.102216803
 20
-182.6394793861
 10
421.253291347
 20
-180.3897289702
 10
424.3653905267
 20
-177.8783135676
 10
427.4193272156
 20
-175.1207168894
 10
430.3962728787
 20
-172.1339404362
 10
433.2778736559
 20
-168.9363986778
 10
436.0463635202
 20
-165.5478055227
 10
438.684673811
 20
-161.9890527743
 10
441.176538468
 20
-158.2820813269
 10
443.506594317
 20
-154.449745892
 10
445.6604757889
 20
-150.515674092
 10
447.624903488
 20
-146.5041207878
 10
449.3877660646
 20
-142.4398185394
 10
450.9381948844
 20
-138.3478251218
 10
452.2666310384
 20
-134.2533690351
 10
453.3648842758
 20
-130.1816939625
 10
454.2261835002
 20
-126.157903135
 10
454.8452185155
 20
-122.206804561
 10
455.2181727651
 20
-118.352758077
 10
455.3427468618
 20
-114.6195251613
  0
LWPOLYLINE
  5
E8
330
1F
100
AcDbEntity
  8
0
  6
Continuous
 62
     7
370
    25
100
AcDbPolyline
 90
       12
 70
   128
 43
0.0
 10
630.3516752055
 20
-213.6090087198
 10
630.2279138698
 20
-209.9519962307
 10
629.8573561436
 20
-206.4593363416
 10
629.2421766068
 20
-203.1515253696
 10
628.3859853777
 20
-200.0479748647
 10
627.2938069267
 20
-197.1668976954
 10
625.9720505915
 20
-194.5252011682
 10
624.4284729636
 20
-192.1383878086
 10
622.6721323704
 20
-190.0204643865
 10
620.7133357168
 20
-188.1838597189
 10
618.5635780006
 20
-186.639351732
 10
617.9953319086
 20
-186.2985660139
  0
LWPOLYLINE
  5
E9
330
1F
100
AcDbEntity
  8
0
  6
Continuous
 62
     7
370
    25
100
AcDbPolyline
 90
       32
 70
   128
 43
0.0
 10
558.3501795069
 20
-289.6181952959
 10
560.1100365606
 20
-290.5207570969
 10
562.6028229011
 20
-291.4556476905
 10
565.2456637746
 20
-292.0765950488
 10
568.0230499402
 20
-292.379955206
 10
570.9186825914
 20
-292.3639479238
 10
573.9155690044
 20
-292.0286671395
 10
576.9961222582
 20
-291.3760804141
 10
580.1422644412
 20
-290.4100173858
 10
583.3355327401
 20
-289.1361472967
 10
586.5571877869
 20
-287.561945723
 10
589.7883236286
 20
-285.6966507055
 10
593.0099786753
 20
-283.5512085371
 10
596.2032469743
 20
-281.1382095254
 10
599.3493891573
 20
-278.4718141082
 10
602.429942411
 20
-275.5676697541
 10
605.426828824
 20
-272.4428191369
 10
608.3224614752
 20
-269.1156001225
 10
611.0998476408
 20
-265.6055381552
 10
613.7426885144
 20
-261.9332316742
 10
616.2354748548
 20
-258.1202312343
 10
618.5635780006
 20
-254.1889130381
 10
620.7133357168
 20
-250.1623476242
 10
622.6721323704
 20
-246.0641644794
 10
624.4284729636
 20
-241.9184133719
 10
625.9720505915
 20
-237.7494232179
 10
627.2938069267
 20
-233.5816593092
 10
628.3859853777
 20
-229.4395797417
 10
629.2421766068
 20
-225.3474918852
 10
629.8573561436
 20
-221.3294097386
 10
630.2279138698
 20
-217.4089130056
 10
630.3516752055
 20
-213.6090087198
  0
LWPOLYLINE
  5
EA
330
1F
100
AcDbEntity
  8
0
  6
Continuous
 62
     7
370
    25
100
AcDbPolyline
 90
       16
 70
   128
 43
0.0
 10
457.1105138148
 20
-113.5990150215
 10
456.9867524791
 20
-109.9420025324
 10
456.6161947529
 20
-106.4493426433
 10
456.0010152161
 20
-103.1415316713
 10
455.144823987
 20
-100.0379811664
 10
454.052645536
 20
-97.1569039971
 10
452.7308892008
 20
-94.5152074699
 10
451.1873115729
 20
-92.1283941103
 10
449.4309709797
 20
-90.0104706883
 10
447.4721743261
 20
-88.1738660206
 10
445.3224166099
 20
-86.6293580337
 10
442.9943134641
 20
-85.3860105146
 10
440.5015271237
 20
-84.4511199211
 10
437.8586862501
 20
-83.8301725627
 10
435.0813000845
 20
-83.5268124056
 10
434.9595740645
 20
-83.520945291
  0
LWPOLYLINE
  5
EB
330
1F
100
AcDbEntity
  8
0
  6
Continuous
 62
     7
370
    25
100
AcDbPolyline
 90
       36
 70
   128
 43
0.0
 10
377.8142184944
 20
-182.5103302611
 10
378.6758770612
 20
-183.768379803
 10
380.4322176544
 20
-185.886303225
 10
382.3910143079
 20
-187.7229078927
 10
384.5407720241
 20
-189.2674158796
 10
386.8688751699
 20
-190.5107633986
 10
389.3616615103
 20
-191.4456539922
 10
392.0045023839
 20
-192.0666013505
 10
394.7818885495
 20
-192.3699615077
 10
397.6775212007
 20
-192.3539542255
 10
400.6744076137
 20
-192.0186734413
 10
403.7549608675
 20
-191.3660867158
 10
406.9011030505
 20
-190.4000236875
 10
410.0943713494
 20
-189.1261535984
 10
413.3160263962
 20
-187.5519520247
 10
416.5471622379
 20
-185.6866570072
 10
419.7688172846
 20
-183.5412148388
 10
422.9620855836
 20
-181.1282158271
 10
426.1082277666
 20
-178.46182041
 10
429.1887810203
 20
-175.5576760558
 10
432.1856674333
 20
-172.4328254386
 10
435.0813000845
 20
-169.1056064242
 10
437.8586862501
 20
-165.5955444569
 10
440.5015271237
 20
-161.9232379759
 10
442.9943134641
 20
-158.110237536
 10
445.3224166099
 20
-154.1789193398
 10
447.4721743261
 20
-150.1523539259
 10
449.4309709797
 20
-146.0541707811
 10
451.1873115729
 20
-141.9084196737
 10
452.7308892008
 20
-137.7394295196
 10
454.052645536
 20
-133.5716656109
 10
455.144823987
 20
-129.4295860434
 10
456.0010152161
 20
-125.337498187
 10
456.6161947529
 20
-121.3194160403
 10
456.9867524791
 20
-117.3989193073
 10
457.1105138148
 20
-113.5990150215
  0
LWPOLYLINE
  5
EC
330
1F
100
AcDbEntity
  8
0
  6
Continuous
 62
     7
370
    25
100
AcDbPolyline
 90
       20
 70
   128
 43
0.0
 10
637.5641643736
 20
-209.4453273495
 10
637.4383207251
 20
-205.4491182248
 10
637.0614310499
 20
-201.6185688497
 10
636.4354158915
 20
-197.9731988257
 10
635.5634652796
 20
-194.5315841228
 10
634.4500224746
 20
-191.3112624208
 10
633.1007613258
 20
-188.3286437408
 10
631.5225573589
 20
-185.598926824
 10
629.7234527394
 20
-183.1360216821
 10
627.7126152921
 20
-180.952478715
 10
625.5002917837
 20
-179.0594247574
 10
623.0977557077
 20
-177.4665063781
 10
620.5172498373
 20
-176.1818407242
 10
617.7719238387
 20
-175.2119741573
 10
614.8757672641
 20
-174.5618488951
 10
611.8435382635
 20
-174.2347778271
 10
608.6906883808
 20
-174.2324276322
 10
605.4332838164
 20
-174.5548102867
 10
602.0879235572
 20
-175.2002830024
 10
599.8217612399
 20
-175.8071869822
  0
LWPOLYLINE
  5
ED
330
1F
100
AcDbEntity
  8
0
  6
Continuous
 62
     7
370
    25
100
AcDbPolyline
 90
       42
 70
   128
 43
0.0
 10
540.1766088382
 20
-279.1268162642
 10
540.7820461359
 20
-281.385177187
 10
541.8954889409
 20
-284.605498889
 10
543.2447500896
 20
-287.588117569
 10
544.8229540565
 20
-290.3178344858
 10
546.622058676
 20
-292.7807396278
 10
548.6328961233
 20
-294.9642825948
 10
550.8452196317
 20
-296.8573365525
 10
553.2477557077
 20
-298.4502549317
 10
555.8282615782
 20
-299.7349205856
 10
558.5735875767
 20
-300.7047871525
 10
561.4697441513
 20
-301.3549124147
 10
564.5019731519
 20
-301.6819834828
 10
567.6548230346
 20
-301.6843336776
 10
570.9122275991
 20
-301.3619510231
 10
574.2575878583
 20
-300.7164783074
 10
577.6738566232
 20
-299.7512047115
 10
581.1436253713
 20
-298.4710490485
 10
584.6492129564
 20
-296.882534698
 10
588.1727557077
 20
-294.9937563651
 10
591.696298459
 20
-292.8143388313
 10
595.2018860441
 20
-290.3553879088
 10
598.6716547922
 20
-287.6294338477
 10
602.0879235572
 20
-284.6503674852
 10
605.4332838164
 20
-281.4333694606
 10
608.6906883808
 20
-277.9948328584
 10
611.8435382635
 20
-274.3522796729
 10
614.8757672641
 20
-270.5242715203
 10
617.7719238387
 20
-266.5303150526
 10
620.5172498373
 20
-262.3907625564
 10
623.0977557077
 20
-258.1267082425
 10
625.5002917837
 20
-253.7598807543
 10
627.7126152921
 20
-249.3125324435
 10
629.7234527394
 20
-244.8073259778
 10
631.5225573589
 20
-240.2672188567
 10
633.1007613258
 20
-235.7153464253
 10
634.4500224746
 20
-231.1749039822
 10
635.5634652796
 20
-226.6690285813
 10
636.4354158915
 20
-222.2206811309
 10
637.0614310499
 20
-217.8525293898
 10
637.4383207251
 20
-213.5868324581
 10
637.5641643736
 20
-209.4453273495
  0
LWPOLYLINE
  5
EE
330
1F
100
AcDbEntity
  8
0
  6
Continuous
 62
     7
370
    25
100
AcDbPolyline
 90
       13
 70
   128
 43
0.0
 10
703.6786484145
 20
-247.6124065772
 10
703.552804766
 20
-243.6161974525
 10
703.1759150909
 20
-239.7856480774
 10
702.5498999324
 20
-236.1402780534
 10
701.6779493205
 20
-232.6986633505
 10
700.5645065155
 20
-229.4783416485
 10
699.2152453668
 20
-226.4957229686
 10
697.6370413998
 20
-223.7660060517
 10
695.8379367803
 20
-221.3031009098
 10
693.827099333
 20
-219.1195579428
 10
691.6147758247
 20
-217.2265039851
 10
689.2122397487
 20
-215.6335856058
 10
689.209401486
 20
-215.6319468453
  0
LWPOLYLINE
  5
EF
330
1F
100
AcDbEntity
  8
0
  6
Continuous
 62
     7
370
    25
100
AcDbPolyline
 90
       34
 70
   128
 43
0.0
 10
619.3650780113
 20
-336.6189729199
 10
621.9427456191
 20
-337.9019998134
 10
624.6880716177
 20
-338.8718663803
 10
627.5842281923
 20
-339.5219916424
 10
630.6164571929
 20
-339.8490627105
 10
633.7693070755
 20
-339.8514129053
 10
637.02671164
 20
-339.5290302508
 10
640.3720718992
 20
-338.8835575351
 10
643.7883406642
 20
-337.9182839393
 10
647.2581094123
 20
-336.6381282762
 10
650.7636969974
 20
-335.0496139257
 10
654.2872397487
 20
-333.1608355928
 10
657.8107824999
 20
-330.9814180591
 10
661.316370085
 20
-328.5224671365
 10
664.7861388332
 20
-325.7965130755
 10
668.2024075981
 20
-322.817446713
 10
671.5477678573
 20
-319.6004486883
 10
674.8051724218
 20
-316.1619120861
 10
677.9580223045
 20
-312.5193589006
 10
680.9902513051
 20
-308.691350748
 10
683.8864078797
 20
-304.6973942803
 10
686.6317338782
 20
-300.5578417842
 10
689.2122397487
 20
-296.2937874703
 10
691.6147758247
 20
-291.926959982
 10
693.827099333
 20
-287.4796116712
 10
695.8379367803
 20
-282.9744052055
 10
697.6370413998
 20
-278.4342980844
 10
699.2152453668
 20
-273.882425653
 10
700.5645065155
 20
-269.3419832099
 10
701.6779493205
 20
-264.836107809
 10
702.5498999324
 20
-260.3877603586
 10
703.1759150909
 20
-256.0196086175
 10
703.552804766
 20
-251.7539116858
 10
703.6786484145
 20
-247.6124065772
  0
LWPOLYLINE
  5
F0
330
1F
100
AcDbEntity
  8
0
  6
Continuous
 62
     7
370
    25
100
AcDbPolyline
 90
        9
 70
   128
 43
0.0
 10
729.594111945
 20
-274.6967456869
 10
729.4680008276
 20
-271.1558150312
 10
729.0904853543
 20
-267.7834534663
 10
728.4640138579
 20
-264.6015320513
 10
727.5926492465
 20
-261.6306867674
 10
726.4820426538
 20
-258.8901846863
 10
725.1393967898
 20
-256.3977990158
 10
723.5734192282
 20
-254.1696938331
 10
723.2312569473
 20
-253.7534916676
  0
LWPOLYLINE
  5
F1
330
1F
100
AcDbEntity
  8
0
  6
Continuous
 62
     7
370
    25
100
AcDbPolyline
 90
       28
 70
   128
 43
0.0
 10
669.3912079698
 20
-347.0172973061
 10
671.2578024971
 20
-347.2665600472
 10
674.0310110331
 20
-347.3463694144
 10
676.9123453649
 20
-347.1006228907
 10
679.8831189339
 20
-346.5309142365
 10
682.9240651333
 20
-345.6409382311
 10
686.0154622603
 20
-344.4364667104
 10
689.1372614181
 20
-342.9253111345
 10
692.2692165414
 20
-341.117271927
 10
695.3910156992
 20
-339.0240749161
 10
698.4824128262
 20
-336.6592952877
 10
701.5233590257
 20
-334.0382695449
 10
704.4941325946
 20
-331.1779960456
 10
707.3754669264
 20
-328.097024761
 10
710.1486754624
 20
-324.8153369721
 10
712.7957728809
 20
-321.3542156835
 10
715.2995917395
 20
-317.7361075949
 10
717.6438938121
 20
-313.9844775257
 10
719.8134754
 20
-310.1236562364
 10
721.7942659343
 20
-306.1786826347
 10
723.5734192282
 20
-302.1751413882
 10
725.1393967898
 20
-298.1389969981
 10
726.4820426538
 20
-294.0964254095
 10
727.5926492465
 20
-290.0736442506
 10
728.4640138579
 20
-286.0967428009
 10
729.0904853543
 20
-282.1915127921
 10
729.4680008276
 20
-278.3832811396
 10
729.594111945
 20
-274.6967456869
  0
LWPOLYLINE
  5
F2
330
1F
100
AcDbEntity
  8
0
  6
Continuous
 62
     7
370
    25
100
AcDbPolyline
 90
       11
 70
   128
 43
0.0
 10
839.9027698101
 20
-338.3765784091
 10
839.7766586927
 20
-334.8356477533
 10
839.3991432194
 20
-331.4632861885
 10
838.772671723
 20
-328.2813647734
 10
837.9013071116
 20
-325.3105194896
 10
836.7907005189
 20
-322.5700174085
 10
835.4480546549
 20
-320.0776317379
 10
833.8820770933
 20
-317.8495265553
 10
832.1029237994
 20
-315.9001519776
 10
830.1221332651
 20
-314.2421504472
 10
828.5096619924
 20
-313.1951140533
  0
LWPOLYLINE
  5
F3
330
1F
100
AcDbEntity
  8
0
  6
Continuous
 62
     7
370
    25
100
AcDbPolyline
 90
       31
 70
   128
 43
0.0
 10
773.5141316974
 20
-408.4604889152
 10
774.0712420126
 20
-408.7693282283
 10
776.4155440851
 20
-409.8142847377
 10
778.9193629437
 20
-410.5415451056
 10
781.5664603622
 20
-410.9463927694
 10
784.3396688982
 20
-411.0262021366
 10
787.22100323
 20
-410.7804556128
 10
790.191776799
 20
-410.2107469587
 10
793.2327229984
 20
-409.3207709533
 10
796.3241201254
 20
-408.1162994326
 10
799.4459192833
 20
-406.6051438566
 10
802.5778744065
 20
-404.7971046492
 10
805.6996735643
 20
-402.7039076383
 10
808.7910706913
 20
-400.3391280098
 10
811.8320168908
 20
-397.7181022671
 10
814.8027904597
 20
-394.8578287678
 10
817.6841247916
 20
-391.7768574832
 10
820.4573333275
 20
-388.4951696943
 10
823.104430746
 20
-385.0340484057
 10
825.6082496046
 20
-381.4159403171
 10
827.9525516772
 20
-377.6643102479
 10
830.1221332651
 20
-373.8034889586
 10
832.1029237994
 20
-369.8585153569
 10
833.8820770933
 20
-365.8549741103
 10
835.4480546549
 20
-361.8188297202
 10
836.7907005189
 20
-357.7762581317
 10
837.9013071116
 20
-353.7534769728
 10
838.772671723
 20
-349.776575523
 10
839.3991432194
 20
-345.8713455143
 10
839.7766586927
 20
-342.0631138618
 10
839.9027698101
 20
-338.3765784091
  0
ENDSEC
  0
SECTION
  2
OBJECTS
  0
DICTIONARY
  5
C
330
0
100
AcDbDictionary
281
     1
  3
ACAD_GROUP
350
D
  3
ACAD_LAYOUT
350
1A
  3
ACAD_MLINESTYLE
350
17
  3
ACAD_PLOTSETTINGS
350
19
  3
ACAD_PLOTSTYLENAME
350
E
  3
ACAD_SCALELIST
350
47
  3
DWGPROPS
350
F4
  0
DICTIONARY
  5
D
102
{ACAD_REACTORS
330
C
102
}
330
C
100
AcDbDictionary
281
     1
  0
DICTIONARY
  5
1A
102
{ACAD_REACTORS
330
C
102
}
330
C
100
AcDbDictionary
281
     1
  3
Layout1
350
1E
  3
Layout2
350
26
  3
Model
350
22
  0
DICTIONARY
  5
17
102
{ACAD_REACTORS
330
C
102
}
330
C
100
AcDbDictionary
281
     1
  3
Standard
350
18
  0
DICTIONARY
  5
19
102
{ACAD_REACTORS
330
C
102
}
330
C
100
AcDbDictionary
281
     1
  0
ACDBDICTIONARYWDFLT
  5
E
102
{ACAD_REACTORS
330
C
102
}
330
C
100
AcDbDictionary
281
     1
  3
Normal
350
F
100
AcDbDictionaryWithDefault
340
F
  0
DICTIONARY
  5
47
102
{ACAD_REACTORS
330
C
102
}
330
C
100
AcDbDictionary
281
     1
  3
A0
350
48
  3
A1
350
49
  3
A2
350
4A
  3
A3
350
4B
  3
A4
350
4C
  3
A5
350
4D
  3
A6
350
4E
  3
A7
350
4F
  3
A8
350
50
  3
A9
350
51
  3
B0
350
52
  3
B1
350
53
  3
B2
350
54
  3
B3
350
55
  3
B4
350
56
  3
B5
350
57
  3
B6
350
58
  3
B7
350
59
  3
B8
350
5A
  3
B9
350
5B
  3
C0
350
5C
  3
C1
350
5D
  3
C2
350
5E
  3
C3
350
5F
  3
C4
350
60
  3
C5
350
61
  3
C6
350
62
  3
C7
350
63
  3
C8
350
64
  3
C9
350
65
  3
D0
350
66
  3
D1
350
67
  3
D2
350
68
  0
XRECORD
  5
F4
102
{ACAD_REACTORS
330
C
102
}
330
C
100
AcDbXrecord
280
     1
  1
DWGPROPS COOKIE
  2

  3

  4

  6

  7

  8
b.kav
  9

300
=
301
=
302
=
303
=
304
=
305
=
306
=
307
=
308
=
309
=
 40
0.0
 41
2459935.58467412
 42
2459935.584674306
  1

 90
        0
  0
LAYOUT
  5
1E
102
{ACAD_REACTORS
330
1A
102
}
330
1A
100
AcDbPlotSettings
  1

  2
none_device
  4

  6

 40
0.0
 41
0.0
 42
0.0
 43
0.0
 44
0.0
 45
0.0
 46
0.0
 47
0.0
 48
0.0
 49
0.0
140
0.0
141
0.0
142
1.0
143
1.0
 70
   688
 72
     1
 73
     0
 74
     5
  7

 75
    16
147
1.0
148
0.0
149
0.0
100
AcDbLayout
  1
Layout1
 70
     1
 71
     1
 10
0.0
 20
0.0
 11
420.0
 21
297.0
 12
0.0
 22
0.0
 32
0.0
 14
1.0000000000E+20
 24
1.0000000000E+20
 34
1.0000000000E+20
 15
-1.0000000000E+20
 25
-1.0000000000E+20
 35
-1.0000000000E+20
146
0.0
 13
0.0
 23
0.0
 33
0.0
 16
1.0
 26
0.0
 36
0.0
 17
0.0
 27
1.0
 37
0.0
 76
     0
330
1B
  0
LAYOUT
  5
26
102
{ACAD_REACTORS
330
1A
102
}
330
1A
100
AcDbPlotSettings
  1

  2
none_device
  4

  6

 40
0.0
 41
0.0
 42
0.0
 43
0.0
 44
0.0
 45
0.0
 46
0.0
 47
0.0
 48
0.0
 49
0.0
140
0.0
141
0.0
142
1.0
143
1.0
 70
   688
 72
     1
 73
     0
 74
     5
  7

 75
    16
147
1.0
148
0.0
149
0.0
100
AcDbLayout
  1
Layout2
 70
     1
 71
     2
 10
0.0
 20
0.0
 11
0.0
 21
0.0
 12
0.0
 22
0.0
 32
0.0
 14
0.0
 24
0.0
 34
0.0
 15
0.0
 25
0.0
 35
0.0
146
0.0
 13
0.0
 23
0.0
 33
0.0
 16
1.0
 26
0.0
 36
0.0
 17
0.0
 27
1.0
 37
0.0
 76
     0
330
23
  0
LAYOUT
  5
22
102
{ACAD_REACTORS
330
1A
102
}
330
1A
100
AcDbPlotSettings
  1

  2
none_device
  4
Letter_(8.50_x_11.00_Inches)
  6

 40
6.35
 41
6.35
 42
6.35000508
 43
6.35000508
 44
215.9
 45
279.4
 46
0.0
 47
0.0
 48
0.0
 49
0.0
140
0.0
141
0.0
142
1.0
143
1.0
 70
  1712
 72
     1
 73
     0
 74
     0
  7

 75
     0
147
1.0
148
0.0
149
0.0
100
AcDbLayout
  1
Model
 70
     1
 71
     0
 10
0.0
 20
0.0
 11
279.4
 21
215.9
 12
0.0
 22
0.0
 32
0.0
 14
0.0
 24
0.0
 34
0.0
 15
279.4
 25
215.9
 35
0.0
146
0.0
 13
0.0
 23
0.0
 33
0.0
 16
1.0
 26
0.0
 36
0.0
 17
0.0
 27
1.0
 37
0.0
 76
     0
330
1F
331
29
  0
MLINESTYLE
  5
18
102
{ACAD_REACTORS
330
17
102
}
330
17
100
AcDbMlineStyle
  2
Standard
 70
     0
  3

 62
   256
 51
90.0
 52
90.0
 71
     2
 49
0.5
 62
   256
  6
BYLAYER
 49
-0.5
 62
   256
  6
BYLAYER
  0
ACDBPLACEHOLDER
  5
F
102
{ACAD_REACTORS
330
E
102
}
330
E
  0
SCALE
  5
48
102
{ACAD_REACTORS
330
47
102
}
330
47
100
AcDbScale
 70
     0
300
1:1
140
1.0
141
1.0
290
     1
  0
SCALE
  5
49
102
{ACAD_REACTORS
330
47
102
}
330
47
100
AcDbScale
 70
     0
300
1:2
140
1.0
141
2.0
290
     0
  0
SCALE
  5
4A
102
{ACAD_REACTORS
330
47
102
}
330
47
100
AcDbScale
 70
     0
300
1:4
140
1.0
141
4.0
290
     0
  0
SCALE
  5
4B
102
{ACAD_REACTORS
330
47
102
}
330
47
100
AcDbScale
 70
     0
300
1:5
140
1.0
141
5.0
290
     0
  0
SCALE
  5
4C
102
{ACAD_REACTORS
330
47
102
}
330
47
100
AcDbScale
 70
     0
300
1:8
140
1.0
141
8.0
290
     0
  0
SCALE
  5
4D
102
{ACAD_REACTORS
330
47
102
}
330
47
100
AcDbScale
 70
     0
300
1:10
140
1.0
141
10.0
290
     0
  0
SCALE
  5
4E
102
{ACAD_REACTORS
330
47
102
}
330
47
100
AcDbScale
 70
     0
300
1:16
140
1.0
141
16.0
290
     0
  0
SCALE
  5
4F
102
{ACAD_REACTORS
330
47
102
}
330
47
100
AcDbScale
 70
     0
300
1:20
140
1.0
141
20.0
290
     0
  0
SCALE
  5
50
102
{ACAD_REACTORS
330
47
102
}
330
47
100
AcDbScale
 70
     0
300
1:30
140
1.0
141
30.0
290
     0
  0
SCALE
  5
51
102
{ACAD_REACTORS
330
47
102
}
330
47
100
AcDbScale
 70
     0
300
1:40
140
1.0
141
40.0
290
     0
  0
SCALE
  5
52
102
{ACAD_REACTORS
330
47
102
}
330
47
100
AcDbScale
 70
     0
300
1:50
140
1.0
141
50.0
290
     0
  0
SCALE
  5
53
102
{ACAD_REACTORS
330
47
102
}
330
47
100
AcDbScale
 70
     0
300
1:100
140
1.0
141
100.0
290
     0
  0
SCALE
  5
54
102
{ACAD_REACTORS
330
47
102
}
330
47
100
AcDbScale
 70
     0
300
2:1
140
2.0
141
1.0
290
     0
  0
SCALE
  5
55
102
{ACAD_REACTORS
330
47
102
}
330
47
100
AcDbScale
 70
     0
300
4:1
140
4.0
141
1.0
290
     0
  0
SCALE
  5
56
102
{ACAD_REACTORS
330
47
102
}
330
47
100
AcDbScale
 70
     0
300
8:1
140
8.0
141
1.0
290
     0
  0
SCALE
  5
57
102
{ACAD_REACTORS
330
47
102
}
330
47
100
AcDbScale
 70
     0
300
10:1
140
10.0
141
1.0
290
     0
  0
SCALE
  5
58
102
{ACAD_REACTORS
330
47
102
}
330
47
100
AcDbScale
 70
     0
300
100:1
140
100.0
141
1.0
290
     0
  0
SCALE
  5
59
102
{ACAD_REACTORS
330
47
102
}
330
47
100
AcDbScale
 70
     0
300
1/128" = 1'-0"
140
0.0078125
141
12.0
290
     0
  0
SCALE
  5
5A
102
{ACAD_REACTORS
330
47
102
}
330
47
100
AcDbScale
 70
     0
300
1/64" = 1'-0"
140
0.015625
141
12.0
290
     0
  0
SCALE
  5
5B
102
{ACAD_REACTORS
330
47
102
}
330
47
100
AcDbScale
 70
     0
300
1/32" = 1'-0"
140
0.03125
141
12.0
290
     0
  0
SCALE
  5
5C
102
{ACAD_REACTORS
330
47
102
}
330
47
100
AcDbScale
 70
     0
300
1/16" = 1'-0"
140
0.0625
141
12.0
290
     0
  0
SCALE
  5
5D
102
{ACAD_REACTORS
330
47
102
}
330
47
100
AcDbScale
 70
     0
300
3/32" = 1'-0"
140
0.09375
141
12.0
290
     0
  0
SCALE
  5
5E
102
{ACAD_REACTORS
330
47
102
}
330
47
100
AcDbScale
 70
     0
300
1/8" = 1'-0"
140
0.125
141
12.0
290
     0
  0
SCALE
  5
5F
102
{ACAD_REACTORS
330
47
102
}
330
47
100
AcDbScale
 70
     0
300
3/16" = 1'-0"
140
0.1875
141
12.0
290
     0
  0
SCALE
  5
60
102
{ACAD_REACTORS
330
47
102
}
330
47
100
AcDbScale
 70
     0
300
1/4" = 1'-0"
140
0.25
141
12.0
290
     0
  0
SCALE
  5
61
102
{ACAD_REACTORS
330
47
102
}
330
47
100
AcDbScale
 70
     0
300
3/8" = 1'-0"
140
0.375
141
12.0
290
     0
  0
SCALE
  5
62
102
{ACAD_REACTORS
330
47
102
}
330
47
100
AcDbScale
 70
     0
300
1/2" = 1'-0"
140
0.5
141
12.0
290
     0
  0
SCALE
  5
63
102
{ACAD_REACTORS
330
47
102
}
330
47
100
AcDbScale
 70
     0
300
3/4" = 1'-0"
140
0.75
141
12.0
290
     0
  0
SCALE
  5
64
102
{ACAD_REACTORS
330
47
102
}
330
47
100
AcDbScale
 70
     0
300
1" = 1'-0"
140
1.0
141
12.0
290
     0
  0
SCALE
  5
65
102
{ACAD_REACTORS
330
47
102
}
330
47
100
AcDbScale
 70
     0
300
1-1/2" = 1'-0"
140
1.5
141
12.0
290
     0
  0
SCALE
  5
66
102
{ACAD_REACTORS
330
47
102
}
330
47
100
AcDbScale
 70
     0
300
3" = 1'-0"
140
3.0
141
12.0
290
     0
  0
SCALE
  5
67
102
{ACAD_REACTORS
330
47
102
}
330
47
100
AcDbScale
 70
     0
300
6" = 1'-0"
140
6.0
141
12.0
290
     0
  0
SCALE
  5
68
102
{ACAD_REACTORS
330
47
102
}
330
47
100
AcDbScale
 70
     0
300
1'-0" = 1'-0"
140
12.0
141
12.0
290
     0
  0
ENDSEC
  0
EOF
